ISO-10303-21;
HEADER;
FILE_DESCRIPTION(('CATIA V5 STEP Exchange'),'2;1');

FILE_NAME('C:\\Documents and Settings\\Administrator\\Desktop\\bandymas1.stp','2011-02-02T10:40:25+00:00',('none'),('none'),'CATIA Version 5 Release 16 (IN-10)','CATIA V5 STEP AP214','none');

FILE_SCHEMA(('AUTOMOTIVE_DESIGN { 1 0 10303 214 1 1 1 1 }'));

ENDSEC;
/* file written by CATIA V5R16 */
DATA;
#5=PRODUCT('Part14','','',(#2)) ;
#2=PRODUCT_CONTEXT(' ',#1,'mechanical') ;
#1=APPLICATION_CONTEXT('automotive design') ;
#10=PRODUCT_DEFINITION(' ',' ',#6,#3) ;
#3=PRODUCT_DEFINITION_CONTEXT('part definition',#1,' ') ;
#11=PRODUCT_DEFINITION_SHAPE(' ',' ',#10) ;
#412=MECHANICAL_DESIGN_GEOMETRIC_PRESENTATION_REPRESENTATION(' ',(#30),#17) ;
#20=SHAPE_REPRESENTATION(' ',(#19),#17) ;
#19=AXIS2_PLACEMENT_3D(' ',#18,$,$) ;
#35=AXIS2_PLACEMENT_3D('Plane Axis2P3D',#32,#33,#34) ;
#75=AXIS2_PLACEMENT_3D('Plane Axis2P3D',#72,#73,#74) ;
#103=AXIS2_PLACEMENT_3D('Plane Axis2P3D',#100,#101,#102) ;
#127=AXIS2_PLACEMENT_3D('Plane Axis2P3D',#124,#125,#126) ;
#151=AXIS2_PLACEMENT_3D('Plane Axis2P3D',#148,#149,#150) ;
#168=AXIS2_PLACEMENT_3D('Plane Axis2P3D',#165,#166,#167) ;
#208=AXIS2_PLACEMENT_3D('Plane Axis2P3D',#205,#206,#207) ;
#236=AXIS2_PLACEMENT_3D('Plane Axis2P3D',#233,#234,#235) ;
#296=AXIS2_PLACEMENT_3D('Plane Axis2P3D',#293,#294,#295) ;
#320=AXIS2_PLACEMENT_3D('Plane Axis2P3D',#317,#318,#319) ;
#18=CARTESIAN_POINT(' ',(0.,0.,0.)) ;
#32=CARTESIAN_POINT('Axis2P3D Location',(200.,85.,-65.)) ;
#37=CARTESIAN_POINT('Line Origine',(250.,65.,-65.)) ;
#41=CARTESIAN_POINT('Vertex',(200.,65.,-65.)) ;
#43=CARTESIAN_POINT('Vertex',(300.,65.,-65.)) ;
#46=CARTESIAN_POINT('Line Origine',(200.,75.,-65.)) ;
#50=CARTESIAN_POINT('Vertex',(200.,85.,-65.)) ;
#53=CARTESIAN_POINT('Line Origine',(250.,85.,-65.)) ;
#57=CARTESIAN_POINT('Vertex',(300.,85.,-65.)) ;
#60=CARTESIAN_POINT('Line Origine',(300.,75.,-65.)) ;
#72=CARTESIAN_POINT('Axis2P3D Location',(300.,0.,0.)) ;
#78=CARTESIAN_POINT('Control Point',(300.,85.,85.)) ;
#79=CARTESIAN_POINT('Control Point',(300.,85.,-65.)) ;
#80=CARTESIAN_POINT('Vertex',(300.,85.,85.)) ;
#84=CARTESIAN_POINT('Control Point',(300.,65.,85.)) ;
#85=CARTESIAN_POINT('Control Point',(300.,85.,85.)) ;
#86=CARTESIAN_POINT('Vertex',(300.,65.,85.)) ;
#90=CARTESIAN_POINT('Control Point',(300.,65.,-65.)) ;
#91=CARTESIAN_POINT('Control Point',(300.,65.,85.)) ;
#100=CARTESIAN_POINT('Axis2P3D Location',(200.,85.,85.)) ;
#105=CARTESIAN_POINT('Line Origine',(200.,85.,10.)) ;
#109=CARTESIAN_POINT('Vertex',(200.,85.,85.)) ;
#112=CARTESIAN_POINT('Line Origine',(250.,85.,85.)) ;
#124=CARTESIAN_POINT('Axis2P3D Location',(200.,65.,-65.)) ;
#129=CARTESIAN_POINT('Line Origine',(250.,65.,85.)) ;
#133=CARTESIAN_POINT('Vertex',(200.,65.,85.)) ;
#136=CARTESIAN_POINT('Line Origine',(200.,65.,9.99999999999)) ;
#148=CARTESIAN_POINT('Axis2P3D Location',(200.,65.,85.)) ;
#153=CARTESIAN_POINT('Line Origine',(200.,75.,85.)) ;
#165=CARTESIAN_POINT('Axis2P3D Location',(-4.97379915032E-014,150.,20.)) ;
#170=CARTESIAN_POINT('Line Origine',(-50.,0.,20.)) ;
#174=CARTESIAN_POINT('Vertex',(-4.26325641456E-014,1.42108547152E-014,20.)) ;
#176=CARTESIAN_POINT('Vertex',(-100.,0.,20.)) ;
#179=CARTESIAN_POINT('Line Origine',(-4.26325641456E-014,75.,20.)) ;
#183=CARTESIAN_POINT('Vertex',(-4.26325641456E-014,150.,20.)) ;
#186=CARTESIAN_POINT('Line Origine',(-50.,150.,20.)) ;
#190=CARTESIAN_POINT('Vertex',(-100.,150.,20.)) ;
#193=CARTESIAN_POINT('Line Origine',(-100.,75.,20.)) ;
#205=CARTESIAN_POINT('Axis2P3D Location',(-100.,0.,0.)) ;
#211=CARTESIAN_POINT('Control Point',(-100.,150.,2.51348229913E-014)) ;
#212=CARTESIAN_POINT('Control Point',(-100.,150.,20.)) ;
#213=CARTESIAN_POINT('Vertex',(-100.,150.,5.19584375525E-014)) ;
#217=CARTESIAN_POINT('Control Point',(-100.,6.01286307656E-015,-6.83793554867E-016)) ;
#218=CARTESIAN_POINT('Control Point',(-100.,150.,2.51348229913E-014)) ;
#219=CARTESIAN_POINT('Vertex',(-100.,0.,7.0617464846E-015)) ;
#223=CARTESIAN_POINT('Control Point',(-100.,1.97123506483E-014,20.)) ;
#224=CARTESIAN_POINT('Control Point',(-100.,6.01286307656E-015,-6.83793554867E-016)) ;
#233=CARTESIAN_POINT('Axis2P3D Location',(-6.3615779311E-014,150.,2.35367281221E-014)) ;
#238=CARTESIAN_POINT('Line Origine',(-4.26325641456E-014,150.,10.)) ;
#242=CARTESIAN_POINT('Vertex',(-4.26325641456E-014,150.,2.48689957516E-014)) ;
#245=CARTESIAN_POINT('Line Origine',(-50.,150.,2.48689957516E-014)) ;
#258=CARTESIAN_POINT('Control Point',(-1.42108547152E-014,150.,20.)) ;
#259=CARTESIAN_POINT('Control Point',(-1.73688224297E-014,1.59872115546E-014,20.)) ;
#260=CARTESIAN_POINT('Control Point',(40.0000000003,137.000000002,2.99999999984)) ;
#261=CARTESIAN_POINT('Control Point',(40.0000000003,17.,33.0000000003)) ;
#262=CARTESIAN_POINT('Control Point',(80.0000000006,124.000000003,-14.0000000003)) ;
#263=CARTESIAN_POINT('Control Point',(80.0000000006,34.,46.0000000006)) ;
#264=CARTESIAN_POINT('Control Point',(119.999999999,110.999999998,-31.0000000001)) ;
#265=CARTESIAN_POINT('Control Point',(119.999999999,51.0000000001,59.0000000023)) ;
#266=CARTESIAN_POINT('Control Point',(160.,97.9999999989,-48.0000000001)) ;
#267=CARTESIAN_POINT('Control Point',(160.,68.0000000001,72.0000000011)) ;
#268=CARTESIAN_POINT('Control Point',(200.,85.,-65.)) ;
#269=CARTESIAN_POINT('Control Point',(200.,85.,85.)) ;
#271=CARTESIAN_POINT('Control Point',(-1.42108547152E-014,150.,20.)) ;
#272=CARTESIAN_POINT('Control Point',(40.0000000003,137.000000002,2.99999999984)) ;
#273=CARTESIAN_POINT('Control Point',(80.0000000006,124.000000003,-14.0000000003)) ;
#274=CARTESIAN_POINT('Control Point',(119.999999999,110.999999998,-31.0000000001)) ;
#275=CARTESIAN_POINT('Control Point',(160.,97.9999999989,-48.0000000001)) ;
#276=CARTESIAN_POINT('Control Point',(200.,85.,-65.)) ;
#279=CARTESIAN_POINT('Control Point',(-1.42108547152E-014,1.68753899743E-014,20.)) ;
#280=CARTESIAN_POINT('Control Point',(40.0000000003,17.,33.0000000003)) ;
#281=CARTESIAN_POINT('Control Point',(80.0000000006,34.,46.0000000006)) ;
#282=CARTESIAN_POINT('Control Point',(119.999999999,51.0000000001,59.0000000023)) ;
#283=CARTESIAN_POINT('Control Point',(160.,68.0000000001,72.0000000011)) ;
#284=CARTESIAN_POINT('Control Point',(200.,85.,85.)) ;
#293=CARTESIAN_POINT('Axis2P3D Location',(-4.89885909616E-014,1.85707333054E-014,20.)) ;
#298=CARTESIAN_POINT('Line Origine',(-50.,1.85707333054E-014,0.)) ;
#302=CARTESIAN_POINT('Vertex',(-4.26325641456E-014,1.42108547152E-014,0.)) ;
#305=CARTESIAN_POINT('Line Origine',(-4.26325641456E-014,1.85707333054E-014,10.)) ;
#317=CARTESIAN_POINT('Axis2P3D Location',(-4.26325641456E-014,0.,7.0617464846E-015)) ;
#322=CARTESIAN_POINT('Line Origine',(-4.26325641456E-014,75.,7.0617464846E-015)) ;
#335=CARTESIAN_POINT('Control Point',(-1.42108547152E-014,150.,2.55351295664E-014)) ;
#336=CARTESIAN_POINT('Control Point',(-1.73688224297E-014,150.,20.)) ;
#337=CARTESIAN_POINT('Control Point',(40.0000000003,133.000000002,-13.0000000002)) ;
#338=CARTESIAN_POINT('Control Point',(40.0000000003,137.000000002,2.99999999984)) ;
#339=CARTESIAN_POINT('Control Point',(80.0000000006,116.000000003,-26.0000000004)) ;
#340=CARTESIAN_POINT('Control Point',(80.0000000006,124.000000003,-14.0000000003)) ;
#341=CARTESIAN_POINT('Control Point',(119.999999999,98.9999999999,-39.0000000023)) ;
#342=CARTESIAN_POINT('Control Point',(119.999999999,110.999999998,-31.0000000001)) ;
#343=CARTESIAN_POINT('Control Point',(160.,81.9999999999,-52.0000000011)) ;
#344=CARTESIAN_POINT('Control Point',(160.,97.9999999989,-48.0000000001)) ;
#345=CARTESIAN_POINT('Control Point',(200.,65.,-65.)) ;
#346=CARTESIAN_POINT('Control Point',(200.,85.,-65.)) ;
#348=CARTESIAN_POINT('Control Point',(-1.42108547152E-014,150.,2.93098878501E-014)) ;
#349=CARTESIAN_POINT('Control Point',(40.0000000003,133.000000002,-13.0000000002)) ;
#350=CARTESIAN_POINT('Control Point',(80.0000000006,116.000000003,-26.0000000004)) ;
#351=CARTESIAN_POINT('Control Point',(119.999999999,98.9999999999,-39.0000000023)) ;
#352=CARTESIAN_POINT('Control Point',(160.,81.9999999999,-52.0000000011)) ;
#353=CARTESIAN_POINT('Control Point',(200.,65.,-65.)) ;
#363=CARTESIAN_POINT('Control Point',(-1.42108547152E-014,7.59885981299E-015,20.)) ;
#364=CARTESIAN_POINT('Control Point',(-1.73688224297E-014,-1.38161087509E-015,-2.88657986403E-015)) ;
#365=CARTESIAN_POINT('Control Point',(40.0000000003,17.,33.0000000003)) ;
#366=CARTESIAN_POINT('Control Point',(40.0000000003,12.9999999993,17.0000000002)) ;
#367=CARTESIAN_POINT('Control Point',(80.0000000006,34.,46.0000000006)) ;
#368=CARTESIAN_POINT('Control Point',(80.0000000006,25.9999999986,34.0000000003)) ;
#369=CARTESIAN_POINT('Control Point',(119.999999999,51.0000000001,59.0000000023)) ;
#370=CARTESIAN_POINT('Control Point',(119.999999999,39.0000000023,51.0000000001)) ;
#371=CARTESIAN_POINT('Control Point',(160.,68.0000000001,72.0000000011)) ;
#372=CARTESIAN_POINT('Control Point',(160.,52.0000000011,68.0000000001)) ;
#373=CARTESIAN_POINT('Control Point',(200.,85.,85.)) ;
#374=CARTESIAN_POINT('Control Point',(200.,65.,85.)) ;
#376=CARTESIAN_POINT('Control Point',(-1.95399252334E-014,-8.881784197E-016,-3.5527136788E-015)) ;
#377=CARTESIAN_POINT('Control Point',(40.0000000003,12.9999999993,17.0000000002)) ;
#378=CARTESIAN_POINT('Control Point',(80.0000000006,25.9999999986,34.0000000003)) ;
#379=CARTESIAN_POINT('Control Point',(119.999999999,39.0000000023,51.0000000001)) ;
#380=CARTESIAN_POINT('Control Point',(160.,52.0000000011,68.0000000001)) ;
#381=CARTESIAN_POINT('Control Point',(200.,65.,85.)) ;
#391=CARTESIAN_POINT('Control Point',(-9.86864910778E-016,-8.881784197E-015,4.4408920985E-015)) ;
#392=CARTESIAN_POINT('Control Point',(-3.15796771449E-015,150.,2.29014338357E-014)) ;
#393=CARTESIAN_POINT('Control Point',(40.0000000003,12.9999999992,17.0000000002)) ;
#394=CARTESIAN_POINT('Control Point',(40.0000000003,133.000000002,-13.0000000002)) ;
#395=CARTESIAN_POINT('Control Point',(80.0000000006,25.9999999985,34.0000000003)) ;
#396=CARTESIAN_POINT('Control Point',(80.0000000006,116.000000003,-26.0000000004)) ;
#397=CARTESIAN_POINT('Control Point',(119.999999999,39.0000000023,51.0000000001)) ;
#398=CARTESIAN_POINT('Control Point',(119.999999999,98.9999999999,-39.0000000023)) ;
#399=CARTESIAN_POINT('Control Point',(160.,52.0000000011,68.0000000001)) ;
#400=CARTESIAN_POINT('Control Point',(160.,81.9999999999,-52.0000000011)) ;
#401=CARTESIAN_POINT('Control Point',(200.,65.,85.)) ;
#402=CARTESIAN_POINT('Control Point',(200.,65.,-65.)) ;
#33=DIRECTION('Axis2P3D Direction',(0.,0.,1.)) ;
#34=DIRECTION('Axis2P3D XDirection',(0.,-1.,0.)) ;
#38=DIRECTION('Vector Direction',(1.,0.,0.)) ;
#47=DIRECTION('Vector Direction',(0.,-1.,0.)) ;
#54=DIRECTION('Vector Direction',(1.,0.,0.)) ;
#61=DIRECTION('Vector Direction',(0.,-1.,0.)) ;
#73=DIRECTION('Axis2P3D Direction',(1.,0.,0.)) ;
#74=DIRECTION('Axis2P3D XDirection',(0.,1.,0.)) ;
#101=DIRECTION('Axis2P3D Direction',(3.57492007317E-017,-1.,-4.02275605902E-015)) ;
#102=DIRECTION('Axis2P3D XDirection',(-9.27805097009E-034,4.02275605902E-015,-1.)) ;
#106=DIRECTION('Vector Direction',(0.,3.97903932026E-015,-1.)) ;
#113=DIRECTION('Vector Direction',(1.,0.,0.)) ;
#125=DIRECTION('Axis2P3D Direction',(2.06584015678E-015,1.,2.52492687905E-015)) ;
#126=DIRECTION('Axis2P3D XDirection',(-1.31707171734E-030,-2.52492687905E-015,1.)) ;
#130=DIRECTION('Vector Direction',(1.,-1.98951966013E-015,0.)) ;
#137=DIRECTION('Vector Direction',(0.,-2.55795384874E-015,1.)) ;
#149=DIRECTION('Axis2P3D Direction',(0.,0.,-1.)) ;
#150=DIRECTION('Axis2P3D XDirection',(0.,1.,0.)) ;
#154=DIRECTION('Vector Direction',(0.,1.,0.)) ;
#166=DIRECTION('Axis2P3D Direction',(0.,0.,-1.)) ;
#167=DIRECTION('Axis2P3D XDirection',(0.,-1.,0.)) ;
#171=DIRECTION('Vector Direction',(-1.,0.,0.)) ;
#180=DIRECTION('Vector Direction',(0.,-1.,0.)) ;
#187=DIRECTION('Vector Direction',(-1.,0.,0.)) ;
#194=DIRECTION('Vector Direction',(0.,-1.,0.)) ;
#206=DIRECTION('Axis2P3D Direction',(-1.,0.,0.)) ;
#207=DIRECTION('Axis2P3D XDirection',(0.,-1.,0.)) ;
#234=DIRECTION('Axis2P3D Direction',(0.,-1.,0.)) ;
#235=DIRECTION('Axis2P3D XDirection',(0.,0.,1.)) ;
#239=DIRECTION('Vector Direction',(0.,0.,1.)) ;
#246=DIRECTION('Vector Direction',(-1.,0.,0.)) ;
#294=DIRECTION('Axis2P3D Direction',(0.,1.,-1.97215226305E-031)) ;
#295=DIRECTION('Axis2P3D XDirection',(0.,-1.97215226305E-031,-1.)) ;
#299=DIRECTION('Vector Direction',(-1.,0.,0.)) ;
#306=DIRECTION('Vector Direction',(0.,-1.57772181044E-031,-1.)) ;
#318=DIRECTION('Axis2P3D Direction',(0.,0.,1.)) ;
#319=DIRECTION('Axis2P3D XDirection',(0.,1.,0.)) ;
#323=DIRECTION('Vector Direction',(0.,1.,0.)) ;
#8=PRODUCT_RELATED_PRODUCT_CATEGORY('part',$,(#5)) ;
#7=PRODUCT_CATEGORY('part','specification') ;
#30=STYLED_ITEM(' ',(#29),#22) ;
#29=PRESENTATION_STYLE_ASSIGNMENT((#28)) ;
#28=SURFACE_STYLE_USAGE(.BOTH.,#27) ;
#27=SURFACE_SIDE_STYLE(' ',(#26)) ;
#26=SURFACE_STYLE_FILL_AREA(#25) ;
#25=FILL_AREA_STYLE(' ',(#24)) ;
#24=FILL_AREA_STYLE_COLOUR(' ',#23) ;
#39=VECTOR('Line Direction',#38,1.) ;
#48=VECTOR('Line Direction',#47,1.) ;
#55=VECTOR('Line Direction',#54,1.) ;
#62=VECTOR('Line Direction',#61,1.) ;
#107=VECTOR('Line Direction',#106,1.) ;
#114=VECTOR('Line Direction',#113,1.) ;
#131=VECTOR('Line Direction',#130,1.) ;
#138=VECTOR('Line Direction',#137,1.) ;
#155=VECTOR('Line Direction',#154,1.) ;
#172=VECTOR('Line Direction',#171,1.) ;
#181=VECTOR('Line Direction',#180,1.) ;
#188=VECTOR('Line Direction',#187,1.) ;
#195=VECTOR('Line Direction',#194,1.) ;
#240=VECTOR('Line Direction',#239,1.) ;
#247=VECTOR('Line Direction',#246,1.) ;
#300=VECTOR('Line Direction',#299,1.) ;
#307=VECTOR('Line Direction',#306,1.) ;
#324=VECTOR('Line Direction',#323,1.) ;
#16=UNCERTAINTY_MEASURE_WITH_UNIT(LENGTH_MEASURE(0.005),#12,'distance_accuracy_value','CONFUSED CURVE UNCERTAINTY') ;
#411=SHAPE_REPRESENTATION_RELATIONSHIP(' ',' ',#20,#410) ;
#66=ORIENTED_EDGE('',*,*,#45,.F.) ;
#67=ORIENTED_EDGE('',*,*,#52,.T.) ;
#68=ORIENTED_EDGE('',*,*,#59,.T.) ;
#69=ORIENTED_EDGE('',*,*,#64,.F.) ;
#94=ORIENTED_EDGE('',*,*,#64,.T.) ;
#95=ORIENTED_EDGE('',*,*,#82,.T.) ;
#96=ORIENTED_EDGE('',*,*,#88,.T.) ;
#97=ORIENTED_EDGE('',*,*,#92,.T.) ;
#118=ORIENTED_EDGE('',*,*,#59,.F.) ;
#119=ORIENTED_EDGE('',*,*,#111,.T.) ;
#120=ORIENTED_EDGE('',*,*,#116,.T.) ;
#121=ORIENTED_EDGE('',*,*,#82,.F.) ;
#142=ORIENTED_EDGE('',*,*,#135,.F.) ;
#143=ORIENTED_EDGE('',*,*,#140,.T.) ;
#144=ORIENTED_EDGE('',*,*,#45,.T.) ;
#145=ORIENTED_EDGE('',*,*,#92,.F.) ;
#159=ORIENTED_EDGE('',*,*,#116,.F.) ;
#160=ORIENTED_EDGE('',*,*,#157,.T.) ;
#161=ORIENTED_EDGE('',*,*,#135,.T.) ;
#162=ORIENTED_EDGE('',*,*,#88,.F.) ;
#199=ORIENTED_EDGE('',*,*,#178,.F.) ;
#200=ORIENTED_EDGE('',*,*,#185,.F.) ;
#201=ORIENTED_EDGE('',*,*,#192,.T.) ;
#202=ORIENTED_EDGE('',*,*,#197,.F.) ;
#227=ORIENTED_EDGE('',*,*,#197,.T.) ;
#228=ORIENTED_EDGE('',*,*,#215,.T.) ;
#229=ORIENTED_EDGE('',*,*,#221,.T.) ;
#230=ORIENTED_EDGE('',*,*,#225,.T.) ;
#251=ORIENTED_EDGE('',*,*,#192,.F.) ;
#252=ORIENTED_EDGE('',*,*,#244,.F.) ;
#253=ORIENTED_EDGE('',*,*,#249,.T.) ;
#254=ORIENTED_EDGE('',*,*,#215,.F.) ;
#287=ORIENTED_EDGE('',*,*,#277,.F.) ;
#288=ORIENTED_EDGE('',*,*,#185,.T.) ;
#289=ORIENTED_EDGE('',*,*,#285,.T.) ;
#290=ORIENTED_EDGE('',*,*,#111,.F.) ;
#311=ORIENTED_EDGE('',*,*,#304,.F.) ;
#312=ORIENTED_EDGE('',*,*,#309,.F.) ;
#313=ORIENTED_EDGE('',*,*,#178,.T.) ;
#314=ORIENTED_EDGE('',*,*,#225,.F.) ;
#328=ORIENTED_EDGE('',*,*,#249,.F.) ;
#329=ORIENTED_EDGE('',*,*,#326,.F.) ;
#330=ORIENTED_EDGE('',*,*,#304,.T.) ;
#331=ORIENTED_EDGE('',*,*,#221,.F.) ;
#356=ORIENTED_EDGE('',*,*,#354,.F.) ;
#357=ORIENTED_EDGE('',*,*,#244,.T.) ;
#358=ORIENTED_EDGE('',*,*,#277,.T.) ;
#359=ORIENTED_EDGE('',*,*,#52,.F.) ;
#384=ORIENTED_EDGE('',*,*,#285,.F.) ;
#385=ORIENTED_EDGE('',*,*,#309,.T.) ;
#386=ORIENTED_EDGE('',*,*,#382,.T.) ;
#387=ORIENTED_EDGE('',*,*,#157,.F.) ;
#404=ORIENTED_EDGE('',*,*,#382,.F.) ;
#405=ORIENTED_EDGE('',*,*,#326,.T.) ;
#406=ORIENTED_EDGE('',*,*,#354,.T.) ;
#407=ORIENTED_EDGE('',*,*,#140,.F.) ;
#31=CLOSED_SHELL('Closed Shell',(#71,#99,#123,#147,#164,#204,#232,#256,#292,#316,#333,#361,#389,#409)) ;
#410=ADVANCED_BREP_SHAPE_REPRESENTATION('NONE',(#22),#17) ;
#71=ADVANCED_FACE('',(#70),#36,.F.) ;
#99=ADVANCED_FACE('',(#98),#76,.T.) ;
#123=ADVANCED_FACE('',(#122),#104,.F.) ;
#147=ADVANCED_FACE('',(#146),#128,.F.) ;
#164=ADVANCED_FACE('',(#163),#152,.F.) ;
#204=ADVANCED_FACE('',(#203),#169,.F.) ;
#232=ADVANCED_FACE('',(#231),#209,.T.) ;
#256=ADVANCED_FACE('',(#255),#237,.F.) ;
#292=ADVANCED_FACE('',(#291),#257,.F.) ;
#316=ADVANCED_FACE('',(#315),#297,.F.) ;
#333=ADVANCED_FACE('',(#332),#321,.F.) ;
#361=ADVANCED_FACE('',(#360),#334,.F.) ;
#389=ADVANCED_FACE('',(#388),#362,.F.) ;
#409=ADVANCED_FACE('',(#408),#390,.F.) ;
#4=APPLICATION_PROTOCOL_DEFINITION('international standard','automotive_design',2001,#1) ;
#77=B_SPLINE_CURVE_WITH_KNOTS('',1,(#78,#79),.UNSPECIFIED.,.F.,.U.,(2,2),(0.,150.),.UNSPECIFIED.) ;
#83=B_SPLINE_CURVE_WITH_KNOTS('',1,(#84,#85),.UNSPECIFIED.,.F.,.U.,(2,2),(0.,20.),.UNSPECIFIED.) ;
#89=B_SPLINE_CURVE_WITH_KNOTS('',1,(#90,#91),.UNSPECIFIED.,.F.,.U.,(2,2),(0.,150.),.UNSPECIFIED.) ;
#210=B_SPLINE_CURVE_WITH_KNOTS('',1,(#211,#212),.UNSPECIFIED.,.F.,.U.,(2,2),(0.,20.),.UNSPECIFIED.) ;
#216=B_SPLINE_CURVE_WITH_KNOTS('',1,(#217,#218),.UNSPECIFIED.,.F.,.U.,(2,2),(0.,150.),.UNSPECIFIED.) ;
#222=B_SPLINE_CURVE_WITH_KNOTS('',1,(#223,#224),.UNSPECIFIED.,.F.,.U.,(2,2),(0.,20.),.UNSPECIFIED.) ;
#270=B_SPLINE_CURVE_WITH_KNOTS('',5,(#271,#272,#273,#274,#275,#276),.UNSPECIFIED.,.F.,.U.,(6,6),(0.,226.825924444),.UNSPECIFIED.) ;
#278=B_SPLINE_CURVE_WITH_KNOTS('',5,(#279,#280,#281,#282,#283,#284),.UNSPECIFIED.,.F.,.U.,(6,6),(0.,226.825924444),.UNSPECIFIED.) ;
#347=B_SPLINE_CURVE_WITH_KNOTS('',5,(#348,#349,#350,#351,#352,#353),.UNSPECIFIED.,.F.,.U.,(6,6),(0.,226.825924444),.UNSPECIFIED.) ;
#375=B_SPLINE_CURVE_WITH_KNOTS('',5,(#376,#377,#378,#379,#380,#381),.UNSPECIFIED.,.F.,.U.,(6,6),(0.,226.825924444),.UNSPECIFIED.) ;
#257=B_SPLINE_SURFACE_WITH_KNOTS('',5,1,((#258,#259),(#260,#261),(#262,#263),(#264,#265),(#266,#267),(#268,#269)),.UNSPECIFIED.,.F.,.F.,.U.,(6,6),(2,2),(0.,226.825924444),(-75.,75.),.UNSPECIFIED.) ;
#334=B_SPLINE_SURFACE_WITH_KNOTS('',5,1,((#335,#336),(#337,#338),(#339,#340),(#341,#342),(#343,#344),(#345,#346)),.UNSPECIFIED.,.F.,.F.,.U.,(6,6),(2,2),(0.,226.825924444),(2.84217094304E-014,20.),.UNSPECIFIED.) ;
#362=B_SPLINE_SURFACE_WITH_KNOTS('',5,1,((#363,#364),(#365,#366),(#367,#368),(#369,#370),(#371,#372),(#373,#374)),.UNSPECIFIED.,.F.,.F.,.U.,(6,6),(2,2),(0.,226.825924444),(-10.,10.),.UNSPECIFIED.) ;
#390=B_SPLINE_SURFACE_WITH_KNOTS('',5,1,((#391,#392),(#393,#394),(#395,#396),(#397,#398),(#399,#400),(#401,#402)),.UNSPECIFIED.,.F.,.F.,.U.,(6,6),(2,2),(2.84217094304E-014,226.825924444),(0.,150.),.UNSPECIFIED.) ;
#22=MANIFOLD_SOLID_BREP('PartBody',#31) ;
#23=COLOUR_RGB('Colour',0.823529411765,0.823529411765,1.) ;
#45=EDGE_CURVE('',#42,#44,#40,.T.) ;
#52=EDGE_CURVE('',#42,#51,#49,.F.) ;
#59=EDGE_CURVE('',#51,#58,#56,.T.) ;
#64=EDGE_CURVE('',#44,#58,#63,.F.) ;
#82=EDGE_CURVE('',#58,#81,#77,.F.) ;
#88=EDGE_CURVE('',#81,#87,#83,.F.) ;
#92=EDGE_CURVE('',#87,#44,#89,.F.) ;
#111=EDGE_CURVE('',#51,#110,#108,.F.) ;
#116=EDGE_CURVE('',#110,#81,#115,.T.) ;
#135=EDGE_CURVE('',#134,#87,#132,.T.) ;
#140=EDGE_CURVE('',#134,#42,#139,.F.) ;
#157=EDGE_CURVE('',#110,#134,#156,.F.) ;
#178=EDGE_CURVE('',#175,#177,#173,.T.) ;
#185=EDGE_CURVE('',#184,#175,#182,.T.) ;
#192=EDGE_CURVE('',#184,#191,#189,.T.) ;
#197=EDGE_CURVE('',#177,#191,#196,.F.) ;
#215=EDGE_CURVE('',#191,#214,#210,.F.) ;
#221=EDGE_CURVE('',#214,#220,#216,.F.) ;
#225=EDGE_CURVE('',#220,#177,#222,.F.) ;
#244=EDGE_CURVE('',#243,#184,#241,.T.) ;
#249=EDGE_CURVE('',#243,#214,#248,.T.) ;
#277=EDGE_CURVE('',#184,#51,#270,.T.) ;
#285=EDGE_CURVE('',#175,#110,#278,.T.) ;
#304=EDGE_CURVE('',#303,#220,#301,.T.) ;
#309=EDGE_CURVE('',#175,#303,#308,.T.) ;
#326=EDGE_CURVE('',#303,#243,#325,.T.) ;
#354=EDGE_CURVE('',#243,#42,#347,.T.) ;
#382=EDGE_CURVE('',#303,#134,#375,.T.) ;
#65=EDGE_LOOP('',(#66,#67,#68,#69)) ;
#93=EDGE_LOOP('',(#94,#95,#96,#97)) ;
#117=EDGE_LOOP('',(#118,#119,#120,#121)) ;
#141=EDGE_LOOP('',(#142,#143,#144,#145)) ;
#158=EDGE_LOOP('',(#159,#160,#161,#162)) ;
#198=EDGE_LOOP('',(#199,#200,#201,#202)) ;
#226=EDGE_LOOP('',(#227,#228,#229,#230)) ;
#250=EDGE_LOOP('',(#251,#252,#253,#254)) ;
#286=EDGE_LOOP('',(#287,#288,#289,#290)) ;
#310=EDGE_LOOP('',(#311,#312,#313,#314)) ;
#327=EDGE_LOOP('',(#328,#329,#330,#331)) ;
#355=EDGE_LOOP('',(#356,#357,#358,#359)) ;
#383=EDGE_LOOP('',(#384,#385,#386,#387)) ;
#403=EDGE_LOOP('',(#404,#405,#406,#407)) ;
#70=FACE_OUTER_BOUND('',#65,.T.) ;
#98=FACE_OUTER_BOUND('',#93,.T.) ;
#122=FACE_OUTER_BOUND('',#117,.T.) ;
#146=FACE_OUTER_BOUND('',#141,.T.) ;
#163=FACE_OUTER_BOUND('',#158,.T.) ;
#203=FACE_OUTER_BOUND('',#198,.T.) ;
#231=FACE_OUTER_BOUND('',#226,.T.) ;
#255=FACE_OUTER_BOUND('',#250,.T.) ;
#291=FACE_OUTER_BOUND('',#286,.T.) ;
#315=FACE_OUTER_BOUND('',#310,.T.) ;
#332=FACE_OUTER_BOUND('',#327,.T.) ;
#360=FACE_OUTER_BOUND('',#355,.T.) ;
#388=FACE_OUTER_BOUND('',#383,.T.) ;
#408=FACE_OUTER_BOUND('',#403,.T.) ;
#40=LINE('Line',#37,#39) ;
#49=LINE('Line',#46,#48) ;
#56=LINE('Line',#53,#55) ;
#63=LINE('Line',#60,#62) ;
#108=LINE('Line',#105,#107) ;
#115=LINE('Line',#112,#114) ;
#132=LINE('Line',#129,#131) ;
#139=LINE('Line',#136,#138) ;
#156=LINE('Line',#153,#155) ;
#173=LINE('Line',#170,#172) ;
#182=LINE('Line',#179,#181) ;
#189=LINE('Line',#186,#188) ;
#196=LINE('Line',#193,#195) ;
#241=LINE('Line',#238,#240) ;
#248=LINE('Line',#245,#247) ;
#301=LINE('Line',#298,#300) ;
#308=LINE('Line',#305,#307) ;
#325=LINE('Line',#322,#324) ;
#36=PLANE('Plane',#35) ;
#76=PLANE('Plane',#75) ;
#104=PLANE('Plane',#103) ;
#128=PLANE('Plane',#127) ;
#152=PLANE('Plane',#151) ;
#169=PLANE('Plane',#168) ;
#209=PLANE('Plane',#208) ;
#237=PLANE('Plane',#236) ;
#297=PLANE('Plane',#296) ;
#321=PLANE('Plane',#320) ;
#14=PLANE_ANGLE_MEASURE_WITH_UNIT(PLANE_ANGLE_MEASURE(0.0174532925199),#13) ;
#9=PRODUCT_CATEGORY_RELATIONSHIP(' ',' ',#7,#8) ;
#6=PRODUCT_DEFINITION_FORMATION_WITH_SPECIFIED_SOURCE('',' ',#5,.NOT_KNOWN.) ;
#21=SHAPE_DEFINITION_REPRESENTATION(#11,#20) ;
#42=VERTEX_POINT('',#41) ;
#44=VERTEX_POINT('',#43) ;
#51=VERTEX_POINT('',#50) ;
#58=VERTEX_POINT('',#57) ;
#81=VERTEX_POINT('',#80) ;
#87=VERTEX_POINT('',#86) ;
#110=VERTEX_POINT('',#109) ;
#134=VERTEX_POINT('',#133) ;
#175=VERTEX_POINT('',#174) ;
#177=VERTEX_POINT('',#176) ;
#184=VERTEX_POINT('',#183) ;
#191=VERTEX_POINT('',#190) ;
#214=VERTEX_POINT('',#213) ;
#220=VERTEX_POINT('',#219) ;
#243=VERTEX_POINT('',#242) ;
#303=VERTEX_POINT('',#302) ;
#12=(LENGTH_UNIT()NAMED_UNIT(*)SI_UNIT(.MILLI.,.METRE.)) ;
#13=(NAMED_UNIT(*)PLANE_ANGLE_UNIT()SI_UNIT($,.RADIAN.)) ;
#15=(NAMED_UNIT(*)SI_UNIT($,.STERADIAN.)SOLID_ANGLE_UNIT()) ;
#17=(GEOMETRIC_REPRESENTATION_CONTEXT(3)GLOBAL_UNCERTAINTY_ASSIGNED_CONTEXT((#16))GLOBAL_UNIT_ASSIGNED_CONTEXT((#12,#13,#15))REPRESENTATION_CONTEXT(' ',' ')) ;
ENDSEC;
END-ISO-10303-21;
